  0
SECTION
  2
HEADER
  9
$ACADVER
  1
AC1015
  9
$ACADMAINTVER
 70
     6
  9
$DWGCODEPAGE
  3
ANSI_1254
  9
$INSBASE
 10
0.0
 20
0.0
 30
0.0
  9
$EXTMIN
 10
0.0
 20
0.0
 30
0.0
  9
$EXTMAX
 10
279.4
 20
215.9
 30
0.0
  9
$LIMMIN
 10
0.0
 20
0.0
  9
$LIMMAX
 10
279.4
 20
215.9
  9
$ORTHOMODE
 70
     0
  9
$REGENMODE
 70
     1
  9
$FILLMODE
 70
     1
  9
$QTEXTMODE
 70
     0
  9
$MIRRTEXT
 70
     1
  9
$LTSCALE
 40
1.0
  9
$ATTMODE
 70
     1
  9
$TEXTSIZE
 40
3.5
  9
$TRACEWID
 40
1.0
  9
$TEXTSTYLE
  7
Standard
  9
$CLAYER
  8
0
  9
$CELTYPE
  6
ByLayer
  9
$CECOLOR
 62
   256
  9
$CELTSCALE
 40
1.0
  9
$DISPSILH
 70
     0
  9
$DIMSCALE
 40
1.0
  9
$DIMASZ
 40
3.5
  9
$DIMEXO
 40
1.0
  9
$DIMDLI
 40
3.75
  9
$DIMRND
 40
0.0
  9
$DIMDLE
 40
0.0
  9
$DIMEXE
 40
1.0
  9
$DIMTP
 40
0.0
  9
$DIMTM
 40
0.0
  9
$DIMTXT
 40
3.5
  9
$DIMCEN
 40
2.5
  9
$DIMTSZ
 40
0.0
  9
$DIMTOL
 70
     0
  9
$DIMLIM
 70
     0
  9
$DIMTIH
 70
     1
  9
$DIMTOH
 70
     1
  9
$DIMSE1
 70
     0
  9
$DIMSE2
 70
     0
  9
$DIMTAD
 70
     1
  9
$DIMZIN
 70
     0
  9
$DIMBLK
  1

  9
$DIMASO
 70
     1
  9
$DIMSHO
 70
     1
  9
$DIMPOST
  1

  9
$DIMAPOST
  1

  9
$DIMALT
 70
     0
  9
$DIMALTD
 70
     3
  9
$DIMALTF
 40
0.0393700787
  9
$DIMLFAC
 40
1.0
  9
$DIMTOFL
 70
     1
  9
$DIMTVP
 40
0.0
  9
$DIMTIX
 70
     0
  9
$DIMSOXD
 70
     0
  9
$DIMSAH
 70
     0
  9
$DIMBLK1
  1

  9
$DIMBLK2
  1

  9
$DIMSTYLE
  2
ISO-25
  9
$DIMCLRD
 70
     0
  9
$DIMCLRE
 70
     0
  9
$DIMCLRT
 70
     0
  9
$DIMTFAC
 40
1.0
  9
$DIMGAP
 40
1.524
  9
$DIMJUST
 70
     0
  9
$DIMSD1
 70
     0
  9
$DIMSD2
 70
     0
  9
$DIMTOLJ
 70
     0
  9
$DIMTZIN
 70
     0
  9
$DIMALTZ
 70
     0
  9
$DIMALTTZ
 70
     0
  9
$DIMUPT
 70
     0
  9
$DIMDEC
 70
     2
  9
$DIMTDEC
 70
     2
  9
$DIMALTU
 70
     2
  9
$DIMALTTD
 70
     3
  9
$DIMTXSTY
  7
Standard
  9
$DIMAUNIT
 70
     0
  9
$DIMADEC
 70
     2
  9
$DIMALTRND
 40
0.0
  9
$DIMAZIN
 70
     0
  9
$DIMDSEP
 70
    44
  9
$DIMATFIT
 70
     3
  9
$DIMFRAC
 70
     0
  9
$DIMLDRBLK
  1

  9
$DIMLUNIT
 70
     2
  9
$DIMLWD
 70
    -2
  9
$DIMLWE
 70
    -2
  9
$DIMTMOVE
 70
     0
  9
$LUNITS
 70
     2
  9
$LUPREC
 70
     2
  9
$SKETCHINC
 40
1.0
  9
$FILLETRAD
 40
10.0
  9
$AUNITS
 70
     0
  9
$AUPREC
 70
     2
  9
$MENU
  1
.
  9
$ELEVATION
 40
0.0
  9
$PELEVATION
 40
0.0
  9
$THICKNESS
 40
0.0
  9
$LIMCHECK
 70
     0
  9
$CHAMFERA
 40
0.0
  9
$CHAMFERB
 40
0.0
  9
$CHAMFERC
 40
0.0
  9
$CHAMFERD
 40
0.0
  9
$SKPOLY
 70
     0
  9
$TDCREATE
 40
2458985.706230127
  9
$TDUCREATE
 40
2458985.581230127
  9
$TDUPDATE
 40
2458985.706230405
  9
$TDUUPDATE
 40
2458985.581230405
  9
$TDINDWG
 40
0.0000000116
  9
$TDUSRTIMER
 40
0.0000000116
  9
$USRTIMER
 70
     1
  9
$ANGBASE
 50
0.0
  9
$ANGDIR
 70
     0
  9
$PDMODE
 70
     0
  9
$PDSIZE
 40
-1.0
  9
$PLINEWID
 40
0.0
  9
$SPLFRAME
 70
     0
  9
$SPLINETYPE
 70
     6
  9
$SPLINESEGS
 70
     8
  9
$HANDSEED
  5
EF
  9
$SURFTAB1
 70
     6
  9
$SURFTAB2
 70
     6
  9
$SURFTYPE
 70
     6
  9
$SURFU
 70
     6
  9
$SURFV
 70
     6
  9
$UCSBASE
  2

  9
$UCSNAME
  2

  9
$UCSORG
 10
0.0
 20
0.0
 30
0.0
  9
$UCSXDIR
 10
1.0
 20
0.0
 30
0.0
  9
$UCSYDIR
 10
0.0
 20
1.0
 30
0.0
  9
$UCSORTHOREF
  2

  9
$UCSORTHOVIEW
 70
     0
  9
$UCSORGTOP
 10
0.0
 20
0.0
 30
0.0
  9
$UCSORGBOTTOM
 10
0.0
 20
0.0
 30
0.0
  9
$UCSORGLEFT
 10
0.0
 20
0.0
 30
0.0
  9
$UCSORGRIGHT
 10
0.0
 20
0.0
 30
0.0
  9
$UCSORGFRONT
 10
0.0
 20
0.0
 30
0.0
  9
$UCSORGBACK
 10
0.0
 20
0.0
 30
0.0
  9
$PUCSBASE
  2

  9
$PUCSNAME
  2

  9
$PUCSORG
 10
0.0
 20
0.0
 30
0.0
  9
$PUCSXDIR
 10
1.0
 20
0.0
 30
0.0
  9
$PUCSYDIR
 10
0.0
 20
1.0
 30
0.0
  9
$PUCSORTHOREF
  2

  9
$PUCSORTHOVIEW
 70
     0
  9
$PUCSORGTOP
 10
0.0
 20
0.0
 30
0.0
  9
$PUCSORGBOTTOM
 10
0.0
 20
0.0
 30
0.0
  9
$PUCSORGLEFT
 10
0.0
 20
0.0
 30
0.0
  9
$PUCSORGRIGHT
 10
0.0
 20
0.0
 30
0.0
  9
$PUCSORGFRONT
 10
0.0
 20
0.0
 30
0.0
  9
$PUCSORGBACK
 10
0.0
 20
0.0
 30
0.0
  9
$USERI1
 70
     0
  9
$USERI2
 70
     0
  9
$USERI3
 70
     0
  9
$USERI4
 70
     0
  9
$USERI5
 70
     0
  9
$USERR1
 40
0.0
  9
$USERR2
 40
0.0
  9
$USERR3
 40
0.0
  9
$USERR4
 40
0.0
  9
$USERR5
 40
0.0
  9
$WORLDVIEW
 70
     1
  9
$SHADEDGE
 70
     3
  9
$SHADEDIF
 70
    70
  9
$TILEMODE
 70
     1
  9
$MAXACTVP
 70
    64
  9
$PINSBASE
 10
0.0
 20
0.0
 30
0.0
  9
$PLIMCHECK
 70
     0
  9
$PEXTMIN
 10
1.0000000000E+20
 20
1.0000000000E+20
 30
1.0000000000E+20
  9
$PEXTMAX
 10
-1.0000000000E+20
 20
-1.0000000000E+20
 30
-1.0000000000E+20
  9
$PLIMMIN
 10
0.0
 20
0.0
  9
$PLIMMAX
 10
420.0
 20
297.0
  9
$UNITMODE
 70
     0
  9
$VISRETAIN
 70
     1
  9
$PLINEGEN
 70
     0
  9
$PSLTSCALE
 70
     1
  9
$TREEDEPTH
 70
  3020
  9
$CMLSTYLE
  2
Standard
  9
$CMLJUST
 70
     0
  9
$CMLSCALE
 40
20.0
  9
$PROXYGRAPHICS
 70
     1
  9
$MEASUREMENT
 70
     1
  9
$CELWEIGHT
370
    -1
  9
$ENDCAPS
280
     0
  9
$JOINSTYLE
280
     0
  9
$LWDISPLAY
290
     1
  9
$INSUNITS
 70
     4
  9
$HYPERLINKBASE
  1

  9
$STYLESHEET
  1

  9
$XEDIT
290
     1
  9
$CEPSNTYPE
380
     0
  9
$PSTYLEMODE
290
     1
  9
$FINGERPRINTGUID
  2
{d845ae79-ff5c-4e6c-a661-fd55a71cfc2f}
  9
$VERSIONGUID
  2
{FAEB1C32-E019-11D5-929B-00C0DF256EC4}
  9
$EXTNAMES
290
     1
  9
$PSVPSCALE
 40
0.0
  9
$OLESTARTUP
290
     0
  0
ENDSEC
  0
SECTION
  2
CLASSES
  0
CLASS
  1
ACDBDICTIONARYWDFLT
  2
AcDbDictionaryWithDefault
  3
ObjectDBX Classes
 90
        0
280
     0
281
     0
  0
CLASS
  1
VISUALSTYLE
  2
AcDbVisualStyle
  3
ObjectDBX Classes
 90
     4095
280
     0
281
     0
  0
CLASS
  1
MATERIAL
  2
AcDbMaterial
  3
ObjectDBX Classes
 90
     1153
280
     0
281
     0
  0
CLASS
  1
SCALE
  2
AcDbScale
  3
ObjectDBX Classes
 90
     1153
280
     0
281
     0
  0
CLASS
  1
TABLESTYLE
  2
AcDbTableStyle
  3
ObjectDBX Classes
 90
     4095
280
     0
281
     0
  0
CLASS
  1
MLEADERSTYLE
  2
AcDbMLeaderStyle
  3
ACDB_MLEADERSTYLE_CLASS
 90
     4095
280
     0
281
     0
  0
CLASS
  1
SUN
  2
AcDbSun
  3
SCENEOE
 90
     1153
280
     0
281
     0
  0
CLASS
  1
ACDBPLACEHOLDER
  2
AcDbPlaceHolder
  3
ObjectDBX Classes
 90
        0
280
     0
281
     0
  0
CLASS
  1
LAYOUT
  2
AcDbLayout
  3
ObjectDBX Classes
 90
        0
280
     0
281
     0
  0
ENDSEC
  0
SECTION
  2
TABLES
  0
TABLE
  2
VPORT
  5
8
330
0
100
AcDbSymbolTable
 70
     1
  0
VPORT
  5
29
330
8
100
AcDbSymbolTableRecord
100
AcDbViewportTableRecord
  2
*Active
 70
     0
 10
0.0
 20
0.0
 11
1.0
 21
1.0
 12
139.7
 22
107.95
 13
0.0
 23
0.0
 14
10.0
 24
10.0
 15
10.0
 25
10.0
 16
0.0
 26
0.0
 36
1.0
 17
0.0
 27
0.0
 37
0.0
 40
215.9
 41
1.2941176471
 42
50.0
 43
0.0
 44
0.0
 50
0.0
 51
0.0
 71
     0
 72
  2000
 73
     1
 74
     3
 75
     0
 76
     0
 77
     0
 78
     0
281
     0
 65
     1
110
0.0
120
0.0
130
0.0
111
1.0
121
0.0
131
0.0
112
0.0
122
1.0
132
0.0
 79
     0
146
0.0
  0
ENDTAB
  0
TABLE
  2
LTYPE
  5
5
330
0
100
AcDbSymbolTable
 70
     6
  0
LTYPE
  5
14
330
5
100
AcDbSymbolTableRecord
100
AcDbLinetypeTableRecord
  2
ByBlock
 70
     0
  3

 72
    65
 73
     0
 40
0.0
  0
LTYPE
  5
15
330
5
100
AcDbSymbolTableRecord
100
AcDbLinetypeTableRecord
  2
ByLayer
 70
     0
  3

 72
    65
 73
     0
 40
0.0
  0
LTYPE
  5
16
330
5
100
AcDbSymbolTableRecord
100
AcDbLinetypeTableRecord
  2
Continuous
 70
     0
  3
Solid line
 72
    65
 73
     0
 40
0.0
  0
LTYPE
  5
6E
330
5
100
AcDbSymbolTableRecord
100
AcDbLinetypeTableRecord
  2
HIDDEN
 70
     0
  3
Hidden __ __ __ __ __ __ __ __ __ __ __ __ __ __
 72
    65
 73
     2
 40
1.905
 49
1.27
 74
     0
 49
-0.635
 74
     0
  0
LTYPE
  5
6F
330
5
100
AcDbSymbolTableRecord
100
AcDbLinetypeTableRecord
  2
PHANTOM
 70
     0
  3
Phantom ______  __  __  ______  __  __  ______
 72
    65
 73
     6
 40
12.7
 49
6.35
 74
     0
 49
-1.27
 74
     0
 49
1.27
 74
     0
 49
-1.27
 74
     0
 49
1.27
 74
     0
 49
-1.27
 74
     0
  0
LTYPE
  5
70
330
5
100
AcDbSymbolTableRecord
100
AcDbLinetypeTableRecord
  2
CENTER
 70
     0
  3
Center ____ _ ____ _ ____ _ ____ _ ____ _ ____
 72
    65
 73
     4
 40
10.16
 49
6.35
 74
     0
 49
-1.27
 74
     0
 49
1.27
 74
     0
 49
-1.27
 74
     0
  0
LTYPE
  5
71
330
5
100
AcDbSymbolTableRecord
100
AcDbLinetypeTableRecord
  2
CENTERX2
 70
     0
  3
Center (2x) ________  __  ________  __  _____
 72
    65
 73
     4
 40
20.32
 49
12.7
 74
     0
 49
-2.54
 74
     0
 49
2.54
 74
     0
 49
-2.54
 74
     0
  0
LTYPE
  5
72
330
5
100
AcDbSymbolTableRecord
100
AcDbLinetypeTableRecord
  2
DOT2
 70
     0
  3
Dot (.5x) ........................................
 72
    65
 73
     2
 40
0.635
 49
0.0
 74
     0
 49
-0.635
 74
     0
  0
ENDTAB
  0
TABLE
  2
LAYER
  5
2
330
0
100
AcDbSymbolTable
 70
    17
  0
LAYER
  5
10
330
2
100
AcDbSymbolTableRecord
100
AcDbLayerTableRecord
  2
0
 70
     0
 62
     7
  6
Continuous
370
    -3
390
F
  0
LAYER
  5
73
330
2
100
AcDbSymbolTableRecord
100
AcDbLayerTableRecord
  2
FORMAT
 70
     0
 62
     7
  6
Continuous
370
    -3
390
F
  0
LAYER
  5
74
330
2
100
AcDbSymbolTableRecord
100
AcDbLayerTableRecord
  2
YARDIMCI_GEOMETRI
 70
     0
 62
    -6
  6
Continuous
290
     0
370
    -3
390
F
  0
LAYER
  5
75
330
2
100
AcDbSymbolTableRecord
100
AcDbLayerTableRecord
  2
SAYFA_CERCEVESI
 70
     0
 62
     7
  6
Continuous
370
    25
390
F
  0
LAYER
  5
76
330
2
100
AcDbSymbolTableRecord
100
AcDbLayerTableRecord
  2
ANTET
 70
     0
 62
     7
  6
Continuous
370
    -3
390
F
  0
LAYER
  5
77
330
2
100
AcDbSymbolTableRecord
100
AcDbLayerTableRecord
  2
OLCU
 70
     0
 62
   150
  6
Continuous
370
    -3
390
F
  0
LAYER
  5
78
330
2
100
AcDbSymbolTableRecord
100
AcDbLayerTableRecord
  2
METIN
 70
     0
 62
    96
  6
Continuous
370
    -3
390
F
  0
LAYER
  5
79
330
2
100
AcDbSymbolTableRecord
100
AcDbLayerTableRecord
  2
BALON
 70
     0
 62
     5
  6
Continuous
370
    -3
390
F
  0
LAYER
  5
7A
330
2
100
AcDbSymbolTableRecord
100
AcDbLayerTableRecord
  2
VURGU
 70
     0
 62
     7
  6
Continuous
370
    -3
390
F
  0
LAYER
  5
7B
330
2
100
AcDbSymbolTableRecord
100
AcDbLayerTableRecord
  2
SILIK
 70
     0
 62
     7
  6
Continuous
370
    -3
390
F
  0
LAYER
  5
7C
330
2
100
AcDbSymbolTableRecord
100
AcDbLayerTableRecord
  2
MODEL
 70
     0
 62
     7
  6
Continuous
370
    -3
390
F
  0
LAYER
  5
7D
330
2
100
AcDbSymbolTableRecord
100
AcDbLayerTableRecord
  2
DETAYLANDıRMA
 70
     0
 62
   190
  6
Continuous
370
    -3
390
F
  0
LAYER
  5
7E
330
2
100
AcDbSymbolTableRecord
100
AcDbLayerTableRecord
  2
TOLERANS
 70
     0
 62
   230
  6
Continuous
370
    -3
390
F
  0
LAYER
  5
7F
330
2
100
AcDbSymbolTableRecord
100
AcDbLayerTableRecord
  2
MERKEZ_CIZGILERI
 70
     0
 62
    30
  6
Continuous
370
    -3
390
F
  0
LAYER
  5
80
330
2
100
AcDbSymbolTableRecord
100
AcDbLayerTableRecord
  2
KESIT-DETAY_CIZGILERI
 70
     0
 62
     7
  6
Continuous
370
    -3
390
F
  0
LAYER
  5
81
330
2
100
AcDbSymbolTableRecord
100
AcDbLayerTableRecord
  2
\U+041E\U+0421\U+0415\U+0412\U+042B\U+0415
 70
     0
 62
     7
  6
Continuous
370
    -3
390
F
  0
LAYER
  5
82
330
2
100
AcDbSymbolTableRecord
100
AcDbLayerTableRecord
  2
\U+0412\U+041E\U+0414\U+042F\U+041D\U+042B\U+0415_\U+0417\U+041D\U+0410\U+041A\U+0418
 70
     0
 62
    11
  6
Continuous
370
    -3
390
F
  0
ENDTAB
  0
TABLE
  2
STYLE
  5
3
330
0
100
AcDbSymbolTable
 70
     1
  0
STYLE
  5
11
330
3
100
AcDbSymbolTableRecord
100
AcDbTextStyleTableRecord
  2
Standard
 70
     0
 40
0.0
 41
1.0
 50
0.0
 71
     0
 42
3.5
  3
txt
  4

  0
ENDTAB
  0
TABLE
  2
VIEW
  5
6
330
0
100
AcDbSymbolTable
 70
     0
  0
ENDTAB
  0
TABLE
  2
UCS
  5
7
330
0
100
AcDbSymbolTable
 70
     0
  0
ENDTAB
  0
TABLE
  2
APPID
  5
9
330
0
100
AcDbSymbolTable
 70
     1
  0
APPID
  5
12
330
9
100
AcDbSymbolTableRecord
100
AcDbRegAppTableRecord
  2
ACAD
 70
     0
  0
ENDTAB
  0
TABLE
  2
DIMSTYLE
  5
A
330
0
100
AcDbSymbolTable
 70
     1
100
AcDbDimStyleTable
  0
DIMSTYLE
105
27
330
A
100
AcDbSymbolTableRecord
100
AcDbDimStyleTableRecord
  2
ISO-25
 70
     0
 41
2.5
 42
0.625
 43
3.75
 44
1.25
 73
     0
 74
     0
 77
     1
 78
     8
140
2.5
141
2.5
143
0.0393700787
147
0.625
171
     3
172
     1
178
     0
271
     2
272
     2
274
     3
278
    44
283
     0
284
     8
340
11
  0
ENDTAB
  0
TABLE
  2
BLOCK_RECORD
  5
1
330
0
100
AcDbSymbolTable
 70
     2
  0
BLOCK_RECORD
  5
1F
330
1
100
AcDbSymbolTableRecord
100
AcDbBlockTableRecord
  2
*Model_Space
340
22
  0
BLOCK_RECORD
  5
1B
330
1
100
AcDbSymbolTableRecord
100
AcDbBlockTableRecord
  2
*Paper_Space
340
1E
  0
BLOCK_RECORD
  5
23
330
1
100
AcDbSymbolTableRecord
100
AcDbBlockTableRecord
  2
*Paper_Space0
340
26
  0
BLOCK_RECORD
  5
88
330
1
100
AcDbSymbolTableRecord
100
AcDbBlockTableRecord
  2
SW_CENTERMARKSYMBOL_0
340
0
102
{BLKREFS
331
93
102
}
  0
ENDTAB
  0
ENDSEC
  0
SECTION
  2
BLOCKS
  0
BLOCK
  5
20
330
1F
100
AcDbEntity
  8
0
100
AcDbBlockBegin
  2
*Model_Space
 70
     0
 10
0.0
 20
0.0
 30
0.0
  3
*Model_Space
  1

  0
ENDBLK
  5
21
330
1F
100
AcDbEntity
  8
0
100
AcDbBlockEnd
  0
BLOCK
  5
1C
330
1B
100
AcDbEntity
 67
     1
  8
0
100
AcDbBlockBegin
  2
*Paper_Space
 70
     0
 10
0.0
 20
0.0
 30
0.0
  3
*Paper_Space
  1

  0
ENDBLK
  5
1D
330
1B
100
AcDbEntity
 67
     1
  8
0
100
AcDbBlockEnd
  0
BLOCK
  5
24
330
23
100
AcDbEntity
  8
0
100
AcDbBlockBegin
  2
*Paper_Space0
 70
     0
 10
0.0
 20
0.0
 30
0.0
  3
*Paper_Space0
  1

  0
ENDBLK
  5
25
330
23
100
AcDbEntity
  8
0
100
AcDbBlockEnd
  0
BLOCK
  5
89
330
88
100
AcDbEntity
  8
0
100
AcDbBlockBegin
  2
SW_CENTERMARKSYMBOL_0
 70
     0
 10
0.0
 20
0.0
 30
0.0
  3
SW_CENTERMARKSYMBOL_0
  1

  0
LINE
  5
8B
330
88
100
AcDbEntity
  8
FORMAT
 62
     0
100
AcDbLine
 10
0.0
 20
0.0
 30
0.0
 11
0.0
 21
2.5
 31
0.0
  0
LINE
  5
8C
330
88
100
AcDbEntity
  8
FORMAT
 62
     0
100
AcDbLine
 10
0.0
 20
0.0
 30
0.0
 11
-2.5
 21
0.0
 31
0.0
  0
LINE
  5
8D
330
88
100
AcDbEntity
  8
FORMAT
 62
     0
100
AcDbLine
 10
0.0
 20
0.0
 30
0.0
 11
0.0
 21
-2.5
 31
0.0
  0
LINE
  5
8E
330
88
100
AcDbEntity
  8
FORMAT
 62
     0
100
AcDbLine
 10
0.0
 20
0.0
 30
0.0
 11
2.5
 21
0.0
 31
0.0
  0
LINE
  5
8F
330
88
100
AcDbEntity
  8
FORMAT
 62
     0
100
AcDbLine
 10
0.0
 20
5.0
 30
0.0
 11
0.0
 21
160.0
 31
0.0
  0
LINE
  5
90
330
88
100
AcDbEntity
  8
FORMAT
 62
     0
100
AcDbLine
 10
-5.0
 20
0.0
 30
0.0
 11
-160.0
 21
0.0
 31
0.0
  0
LINE
  5
91
330
88
100
AcDbEntity
  8
FORMAT
 62
     0
100
AcDbLine
 10
0.0
 20
-5.0
 30
0.0
 11
0.0
 21
-160.0
 31
0.0
  0
LINE
  5
92
330
88
100
AcDbEntity
  8
FORMAT
 62
     0
100
AcDbLine
 10
5.0
 20
0.0
 30
0.0
 11
160.0
 21
0.0
 31
0.0
  0
ENDBLK
  5
8A
330
88
100
AcDbEntity
  8
0
100
AcDbBlockEnd
  0
ENDSEC
  0
SECTION
  2
ENTITIES
  0
CIRCLE
  5
83
330
1F
100
AcDbEntity
  8
0
  6
Continuous
 62
     7
370
    25
100
AcDbCircle
 10
130.6810329512
 20
112.0420513222
 30
0.0
 40
157.5
  0
CIRCLE
  5
84
330
1F
100
AcDbEntity
  8
0
  6
Continuous
 62
     7
370
    25
100
AcDbCircle
 10
130.6810329512
 20
112.0420513222
 30
0.0
 40
138.8
  0
CIRCLE
  5
85
330
1F
100
AcDbEntity
  8
0
  6
Continuous
 62
     7
370
    25
100
AcDbCircle
 10
130.6810329512
 20
112.0420513222
 30
0.0
 40
138.6329929437856
  0
CIRCLE
  5
86
330
1F
100
AcDbEntity
  8
0
  6
Continuous
 62
     7
370
    25
100
AcDbCircle
 10
130.6810329512
 20
112.0420513222
 30
0.0
 40
123.5670070562145
  0
CIRCLE
  5
87
330
1F
100
AcDbEntity
  8
0
  6
Continuous
 62
     7
370
    25
100
AcDbCircle
 10
130.6810329512
 20
112.0420513222
 30
0.0
 40
123.4
  0
INSERT
  5
93
330
1F
100
AcDbEntity
  8
FORMAT
 62
     7
100
AcDbBlockReference
  2
SW_CENTERMARKSYMBOL_0
 10
130.6810329512
 20
112.0420513222
 30
0.0
  0
LINE
  5
94
330
1F
100
AcDbEntity
  8
0
  6
Continuous
 62
     7
370
    25
100
AcDbLine
 10
-487.2938582828
 20
269.5420501301
 30
0.0
 11
-637.0332094064
 21
269.5420501301
 31
0.0
  0
LINE
  5
95
330
1F
100
AcDbEntity
  8
0
  6
Continuous
 62
     7
370
    25
100
AcDbLine
 10
-637.0332094064
 20
-45.4579474857
 30
0.0
 11
-487.2938582828
 21
-45.4579474857
 31
0.0
  0
ARC
  5
96
330
1F
100
AcDbEntity
  8
0
  6
Continuous
 62
     7
370
    25
100
AcDbCircle
 10
-487.2938576511
 20
267.5420513222
 30
0.0
 40
2.000000000000114
100
AcDbArc
 50
75.149661701
 51
90.0
  0
ARC
  5
97
330
1F
100
AcDbEntity
  8
0
  6
Continuous
 62
     7
370
    25
100
AcDbCircle
 10
-487.2938576511
 20
-43.4579486778
 30
0.0
 40
2.000000000000011
100
AcDbArc
 50
270.0
 51
284.850338299
  0
LINE
  5
98
330
1F
100
AcDbEntity
  8
0
  6
Continuous
 62
     7
370
    25
100
AcDbLine
 10
-486.781267651
 20
-45.3911455801
 30
0.0
 11
-421.285152637
 21
-28.0247511795
 31
0.0
  0
LINE
  5
99
330
1F
100
AcDbEntity
  8
0
  6
Continuous
 62
     7
370
    25
100
AcDbLine
 10
-421.285152637
 20
252.1088538239
 30
0.0
 11
-486.781267651
 21
269.4752482245
 31
0.0
  0
ARC
  5
9A
330
1F
100
AcDbEntity
  8
0
  6
Continuous
 62
     7
370
    25
100
AcDbCircle
 10
-420.7725614764
 20
254.0420513222
 30
0.0
 40
2.0
100
AcDbArc
 50
255.149661701
 51
270.0
  0
ARC
  5
9B
330
1F
100
AcDbEntity
  8
0
  6
Continuous
 62
     7
370
    25
100
AcDbCircle
 10
-420.7725614764
 20
-29.9579486778
 30
0.0
 40
2.000000000000004
100
AcDbArc
 50
90.0
 51
104.850338299
  0
LINE
  5
9C
330
1F
100
AcDbEntity
  8
0
  6
Continuous
 62
     7
370
    25
100
AcDbLine
 10
-282.0332052341
 20
252.0420519183
 30
0.0
 11
-420.7725601425
 21
252.0420519183
 31
0.0
  0
LINE
  5
9D
330
1F
100
AcDbEntity
  8
0
  6
Continuous
 62
     7
370
    25
100
AcDbLine
 10
-420.7725601425
 20
-27.9579492738
 30
0.0
 11
-282.0332052341
 21
-27.9579492738
 31
0.0
  0
LINE
  5
9E
330
1F
100
AcDbEntity
  8
0
  6
Continuous
 62
     7
370
    25
100
AcDbLine
 10
-637.0332094064
 20
269.5420501301
 30
0.0
 11
-637.0332094064
 21
-45.4579474857
 31
0.0
  0
LINE
  5
9F
330
1F
100
AcDbEntity
  8
0
  6
Continuous
 62
     7
370
    25
100
AcDbLine
 10
-282.0332052341
 20
252.0420519183
 30
0.0
 11
-282.0332052341
 21
-27.9579492738
 31
0.0
  0
LINE
  5
A0
330
1F
100
AcDbEntity
  8
0
  6
Continuous
 62
     1
370
    25
100
AcDbLine
 10
-487.2938582828
 20
269.5420501301
 30
0.0
 11
-487.2938582828
 21
-45.4579474857
 31
0.0
  0
LINE
  5
A1
330
1F
100
AcDbEntity
  8
0
  6
Continuous
 62
     1
370
    25
100
AcDbLine
 10
-486.781267651
 20
269.4752482245
 30
0.0
 11
-486.781267651
 21
-45.3911455801
 31
0.0
  0
LINE
  5
A2
330
1F
100
AcDbEntity
  8
0
  6
Continuous
 62
     1
370
    25
100
AcDbLine
 10
-421.285152637
 20
252.1088538239
 30
0.0
 11
-421.285152637
 21
-28.0247511795
 31
0.0
  0
LINE
  5
A3
330
1F
100
AcDbEntity
  8
0
  6
Continuous
 62
     1
370
    25
100
AcDbLine
 10
-420.7725601425
 20
252.0420519183
 30
0.0
 11
-420.7725601425
 21
-27.9579492738
 31
0.0
  0
LINE
  5
A4
330
1F
100
AcDbEntity
  8
0
  6
Continuous
 62
     7
370
    25
100
AcDbLine
 10
288.1810317591
 20
583.267452217
 30
0.0
 11
288.1810317591
 21
733.0068033406
 31
0.0
  0
LINE
  5
A5
330
1F
100
AcDbEntity
  8
0
  6
Continuous
 62
     7
370
    25
100
AcDbLine
 10
-26.8189658567
 20
733.0068033406
 30
0.0
 11
-26.8189658567
 21
583.267452217
 31
0.0
  0
ARC
  5
A6
330
1F
100
AcDbEntity
  8
0
  6
Continuous
 62
     7
370
    25
100
AcDbCircle
 10
286.1810329512
 20
583.2674515853
 30
0.0
 40
2.000000000000045
100
AcDbArc
 50
345.149661701
 51
0.0
  0
ARC
  5
A7
330
1F
100
AcDbEntity
  8
0
  6
Continuous
 62
     7
370
    25
100
AcDbCircle
 10
-24.8189670488
 20
583.2674515853
 30
0.0
 40
2.0
100
AcDbArc
 50
180.0
 51
194.850338299
  0
LINE
  5
A8
330
1F
100
AcDbEntity
  8
0
  6
Continuous
 62
     7
370
    25
100
AcDbLine
 10
-26.7521639511
 20
582.7548615852
 30
0.0
 11
-9.3857695505
 21
517.2587465712
 31
0.0
  0
LINE
  5
A9
330
1F
100
AcDbEntity
  8
0
  6
Continuous
 62
     7
370
    25
100
AcDbLine
 10
270.7478354528
 20
517.2587465712
 30
0.0
 11
288.1142298534
 21
582.7548615852
 31
0.0
  0
ARC
  5
AA
330
1F
100
AcDbEntity
  8
0
  6
Continuous
 62
     7
370
    25
100
AcDbCircle
 10
272.6810329512
 20
516.7461554106
 30
0.0
 40
2.0
100
AcDbArc
 50
165.149661701
 51
180.0
  0
ARC
  5
AB
330
1F
100
AcDbEntity
  8
0
  6
Continuous
 62
     7
370
    25
100
AcDbCircle
 10
-11.3189670488
 20
516.7461554106
 30
0.0
 40
2.000000000000002
100
AcDbArc
 50
0.0
 51
14.850338299
  0
LINE
  5
AC
330
1F
100
AcDbEntity
  8
0
  6
Continuous
 62
     7
370
    25
100
AcDbLine
 10
270.6810335472
 20
378.0067991683
 30
0.0
 11
270.6810335472
 21
516.7461540767
 31
0.0
  0
LINE
  5
AD
330
1F
100
AcDbEntity
  8
0
  6
Continuous
 62
     7
370
    25
100
AcDbLine
 10
-9.3189676449
 20
516.7461540767
 30
0.0
 11
-9.3189676449
 21
378.0067991683
 31
0.0
  0
LINE
  5
AE
330
1F
100
AcDbEntity
  8
0
  6
Continuous
 62
     7
370
    25
100
AcDbLine
 10
288.1810317591
 20
733.0068033406
 30
0.0
 11
-26.8189658567
 21
733.0068033406
 31
0.0
  0
LINE
  5
AF
330
1F
100
AcDbEntity
  8
0
  6
Continuous
 62
     7
370
    25
100
AcDbLine
 10
270.6810335472
 20
378.0067991683
 30
0.0
 11
-9.3189676449
 21
378.0067991683
 31
0.0
  0
LINE
  5
B0
330
1F
100
AcDbEntity
  8
0
  6
Continuous
 62
     1
370
    25
100
AcDbLine
 10
288.1810317591
 20
583.267452217
 30
0.0
 11
-26.8189658567
 21
583.267452217
 31
0.0
  0
LINE
  5
B1
330
1F
100
AcDbEntity
  8
0
  6
Continuous
 62
     1
370
    25
100
AcDbLine
 10
288.1142298534
 20
582.7548615852
 30
0.0
 11
-26.7521639511
 21
582.7548615852
 31
0.0
  0
LINE
  5
B2
330
1F
100
AcDbEntity
  8
0
  6
Continuous
 62
     1
370
    25
100
AcDbLine
 10
270.7478354528
 20
517.2587465712
 30
0.0
 11
-9.3857695505
 21
517.2587465712
 31
0.0
  0
LINE
  5
B3
330
1F
100
AcDbEntity
  8
0
  6
Continuous
 62
     1
370
    25
100
AcDbLine
 10
270.6810335472
 20
516.7461540767
 30
0.0
 11
-9.3189676449
 21
516.7461540767
 31
0.0
  0
LINE
  5
B4
330
1F
100
AcDbEntity
  8
0
  6
Continuous
 62
     7
370
    25
100
AcDbLine
 10
793.9911275125
 20
-45.4579474857
 30
0.0
 11
943.7304786361
 21
-45.4579474857
 31
0.0
  0
LINE
  5
B5
330
1F
100
AcDbEntity
  8
0
  6
Continuous
 62
     7
370
    25
100
AcDbLine
 10
943.7304786361
 20
269.5420501301
 30
0.0
 11
793.9911275125
 21
269.5420501301
 31
0.0
  0
ARC
  5
B6
330
1F
100
AcDbEntity
  8
0
  6
Continuous
 62
     7
370
    25
100
AcDbCircle
 10
793.9911268808
 20
-43.4579486778
 30
0.0
 40
2.000000000000007
100
AcDbArc
 50
255.149661701
 51
270.0
  0
ARC
  5
B7
330
1F
100
AcDbEntity
  8
0
  6
Continuous
 62
     7
370
    25
100
AcDbCircle
 10
793.9911268808
 20
267.5420513222
 30
0.0
 40
2.0000000000001
100
AcDbArc
 50
90.0
 51
104.850338299
  0
LINE
  5
B8
330
1F
100
AcDbEntity
  8
0
  6
Continuous
 62
     7
370
    25
100
AcDbLine
 10
793.4785368807
 20
269.4752482245
 30
0.0
 11
727.9824218667
 21
252.1088538239
 31
0.0
  0
LINE
  5
B9
330
1F
100
AcDbEntity
  8
0
  6
Continuous
 62
     7
370
    25
100
AcDbLine
 10
727.9824218667
 20
-28.0247511795
 30
0.0
 11
793.4785368807
 21
-45.3911455801
 31
0.0
  0
ARC
  5
BA
330
1F
100
AcDbEntity
  8
0
  6
Continuous
 62
     7
370
    25
100
AcDbCircle
 10
727.4698307061
 20
-29.9579486778
 30
0.0
 40
2.000000000000004
100
AcDbArc
 50
75.149661701
 51
90.0
  0
ARC
  5
BB
330
1F
100
AcDbEntity
  8
0
  6
Continuous
 62
     7
370
    25
100
AcDbCircle
 10
727.4698307061
 20
254.0420513222
 30
0.0
 40
2.0
100
AcDbArc
 50
270.0
 51
284.850338299
  0
LINE
  5
BC
330
1F
100
AcDbEntity
  8
0
  6
Continuous
 62
     7
370
    25
100
AcDbLine
 10
588.7304744638
 20
-27.9579492738
 30
0.0
 11
727.4698293722
 21
-27.9579492738
 31
0.0
  0
LINE
  5
BD
330
1F
100
AcDbEntity
  8
0
  6
Continuous
 62
     7
370
    25
100
AcDbLine
 10
727.4698293722
 20
252.0420519183
 30
0.0
 11
588.7304744638
 21
252.0420519183
 31
0.0
  0
LINE
  5
BE
330
1F
100
AcDbEntity
  8
0
  6
Continuous
 62
     7
370
    25
100
AcDbLine
 10
943.7304786361
 20
112.0420513222
 30
0.0
 11
943.7304786361
 21
269.5420501301
 31
0.0
  0
LINE
  5
BF
330
1F
100
AcDbEntity
  8
0
  6
Continuous
 62
     7
370
    25
100
AcDbLine
 10
943.7304786361
 20
-45.4579474857
 30
0.0
 11
943.7304786361
 21
112.0420513222
 31
0.0
  0
LINE
  5
C0
330
1F
100
AcDbEntity
  8
0
  6
Continuous
 62
     7
370
    25
100
AcDbLine
 10
588.7304744638
 20
112.0420513222
 30
0.0
 11
588.7304744638
 21
252.0420519183
 31
0.0
  0
LINE
  5
C1
330
1F
100
AcDbEntity
  8
0
  6
Continuous
 62
     7
370
    25
100
AcDbLine
 10
588.7304744638
 20
-27.9579492738
 30
0.0
 11
588.7304744638
 21
112.0420513222
 31
0.0
  0
LINE
  5
C2
330
1F
100
AcDbEntity
  8
0
  6
Continuous
 62
     1
370
    25
100
AcDbLine
 10
793.9911275125
 20
112.0420513222
 30
0.0
 11
793.9911275125
 21
269.5420501301
 31
0.0
  0
LINE
  5
C3
330
1F
100
AcDbEntity
  8
0
  6
Continuous
 62
     1
370
    25
100
AcDbLine
 10
793.9911275125
 20
-45.4579474857
 30
0.0
 11
793.9911275125
 21
112.0420513222
 31
0.0
  0
LINE
  5
C4
330
1F
100
AcDbEntity
  8
0
  6
Continuous
 62
     1
370
    25
100
AcDbLine
 10
793.4785368807
 20
112.0420513222
 30
0.0
 11
793.4785368807
 21
269.4752482245
 31
0.0
  0
LINE
  5
C5
330
1F
100
AcDbEntity
  8
0
  6
Continuous
 62
     1
370
    25
100
AcDbLine
 10
793.4785368807
 20
-45.3911455801
 30
0.0
 11
793.4785368807
 21
112.0420513222
 31
0.0
  0
LINE
  5
C6
330
1F
100
AcDbEntity
  8
0
  6
Continuous
 62
     1
370
    25
100
AcDbLine
 10
727.9824218667
 20
112.0420513222
 30
0.0
 11
727.9824218667
 21
252.1088538239
 31
0.0
  0
LINE
  5
C7
330
1F
100
AcDbEntity
  8
0
  6
Continuous
 62
     1
370
    25
100
AcDbLine
 10
727.9824218667
 20
-28.0247511795
 30
0.0
 11
727.9824218667
 21
112.0420513222
 31
0.0
  0
LINE
  5
C8
330
1F
100
AcDbEntity
  8
0
  6
Continuous
 62
     1
370
    25
100
AcDbLine
 10
727.4698293722
 20
112.0420513222
 30
0.0
 11
727.4698293722
 21
252.0420519183
 31
0.0
  0
LINE
  5
C9
330
1F
100
AcDbEntity
  8
0
  6
Continuous
 62
     1
370
    25
100
AcDbLine
 10
727.4698293722
 20
-27.9579492738
 30
0.0
 11
727.4698293722
 21
112.0420513222
 31
0.0
  0
LINE
  5
CA
330
1F
100
AcDbEntity
  8
0
  6
Continuous
 62
     7
370
    25
100
AcDbLine
 10
-26.8189658567
 20
-356.5311583763
 30
0.0
 11
-26.8189658567
 21
-506.2705094999
 31
0.0
  0
LINE
  5
CB
330
1F
100
AcDbEntity
  8
0
  6
Continuous
 62
     7
370
    25
100
AcDbLine
 10
288.1810317591
 20
-506.2705094999
 30
0.0
 11
288.1810317591
 21
-356.5311583763
 31
0.0
  0
ARC
  5
CC
330
1F
100
AcDbEntity
  8
0
  6
Continuous
 62
     7
370
    25
100
AcDbCircle
 10
-24.8189670488
 20
-356.5311577446
 30
0.0
 40
2.000000000000022
100
AcDbArc
 50
165.149661701
 51
180.0
  0
ARC
  5
CD
330
1F
100
AcDbEntity
  8
0
  6
Continuous
 62
     7
370
    25
100
AcDbCircle
 10
286.1810329512
 20
-356.5311577446
 30
0.0
 40
2.000000000000074
100
AcDbArc
 50
0.0
 51
14.850338299
  0
LINE
  5
CE
330
1F
100
AcDbEntity
  8
0
  6
Continuous
 62
     7
370
    25
100
AcDbLine
 10
288.1142298534
 20
-356.0185677445
 30
0.0
 11
270.7478354528
 21
-290.5224527305
 31
0.0
  0
LINE
  5
CF
330
1F
100
AcDbEntity
  8
0
  6
Continuous
 62
     7
370
    25
100
AcDbLine
 10
-9.3857695505
 20
-290.5224527305
 30
0.0
 11
-26.7521639511
 21
-356.0185677445
 31
0.0
  0
ARC
  5
D0
330
1F
100
AcDbEntity
  8
0
  6
Continuous
 62
     7
370
    25
100
AcDbCircle
 10
-11.3189670488
 20
-290.0098615699
 30
0.0
 40
2.000000000000002
100
AcDbArc
 50
345.149661701
 51
0.0
  0
ARC
  5
D1
330
1F
100
AcDbEntity
  8
0
  6
Continuous
 62
     7
370
    25
100
AcDbCircle
 10
272.6810329512
 20
-290.0098615699
 30
0.0
 40
2.0
100
AcDbArc
 50
180.0
 51
194.850338299
  0
LINE
  5
D2
330
1F
100
AcDbEntity
  8
0
  6
Continuous
 62
     7
370
    25
100
AcDbLine
 10
-9.3189676449
 20
-151.2705053275
 30
0.0
 11
-9.3189676449
 21
-290.009860236
 31
0.0
  0
LINE
  5
D3
330
1F
100
AcDbEntity
  8
0
  6
Continuous
 62
     7
370
    25
100
AcDbLine
 10
270.6810335472
 20
-290.009860236
 30
0.0
 11
270.6810335472
 21
-151.2705053275
 31
0.0
  0
LINE
  5
D4
330
1F
100
AcDbEntity
  8
0
  6
Continuous
 62
     7
370
    25
100
AcDbLine
 10
-26.8189658567
 20
-506.2705094999
 30
0.0
 11
288.1810317591
 21
-506.2705094999
 31
0.0
  0
LINE
  5
D5
330
1F
100
AcDbEntity
  8
0
  6
Continuous
 62
     7
370
    25
100
AcDbLine
 10
-9.3189676449
 20
-151.2705053275
 30
0.0
 11
270.6810335472
 21
-151.2705053275
 31
0.0
  0
LINE
  5
D6
330
1F
100
AcDbEntity
  8
0
  6
Continuous
 62
     1
370
    25
100
AcDbLine
 10
-26.8189658567
 20
-356.5311583763
 30
0.0
 11
288.1810317591
 21
-356.5311583763
 31
0.0
  0
LINE
  5
D7
330
1F
100
AcDbEntity
  8
0
  6
Continuous
 62
     1
370
    25
100
AcDbLine
 10
-26.7521639511
 20
-356.0185677445
 30
0.0
 11
288.1142298534
 21
-356.0185677445
 31
0.0
  0
LINE
  5
D8
330
1F
100
AcDbEntity
  8
0
  6
Continuous
 62
     1
370
    25
100
AcDbLine
 10
-9.3857695505
 20
-290.5224527305
 30
0.0
 11
270.7478354528
 21
-290.5224527305
 31
0.0
  0
LINE
  5
D9
330
1F
100
AcDbEntity
  8
0
  6
Continuous
 62
     1
370
    25
100
AcDbLine
 10
-9.3189676449
 20
-290.009860236
 30
0.0
 11
270.6810335472
 21
-290.009860236
 31
0.0
  0
LINE
  5
DA
330
1F
100
AcDbEntity
  8
0
  6
Continuous
 62
     7
370
    25
100
AcDbLine
 10
760.318750457
 20
-205.4953478227
 30
0.0
 11
654.4370398671
 21
-144.3711373646
 31
0.0
  0
LINE
  5
DB
330
1F
100
AcDbEntity
  8
0
  6
Continuous
 62
     7
370
    25
100
AcDbLine
 10
496.9498402424
 20
-417.1765346529
 30
0.0
 11
602.8315508323
 21
-478.3007451111
 31
0.0
  0
LINE
  5
DC
330
1F
100
AcDbEntity
  8
0
  6
Continuous
 62
     7
370
    25
100
AcDbLine
 10
619.3844555817
 20
-484.5551965004
 30
0.0
 11
672.5974161991
 21
-495.5776041331
 31
0.0
  0
LINE
  5
DD
330
1F
100
AcDbEntity
  8
0
  6
Continuous
 62
     7
370
    25
100
AcDbLine
 10
810.1687442259
 20
-257.2712557891
 30
0.0
 11
774.0127712517
 21
-216.7020729097
 31
0.0
  0
LINE
  5
DE
330
1F
100
AcDbEntity
  8
0
  6
Continuous
 62
     7
370
    25
100
AcDbLine
 10
896.7106595144
 20
-304.4394373628
 30
0.0
 11
805.0447700942
 21
-251.5218457831
 31
0.0
  0
LINE
  5
DF
330
1F
100
AcDbEntity
  8
0
  6
Continuous
 62
     7
370
    25
100
AcDbLine
 10
665.0561517178
 20
-494.0155261783
 30
0.0
 11
756.7220411381
 21
-546.933117758
 31
0.0
  0
LWPOLYLINE
  5
E0
330
1F
100
AcDbEntity
  8
0
  6
Continuous
 62
     7
370
    25
100
AcDbPolyline
 90
      134
 70
   128
 43
0.0
 10
464.3241228608
 20
-345.0659743281
 10
464.4483717702
 20
-338.920941639
 10
464.8208656173
 20
-332.6461516464
 10
465.4407509285
 20
-326.2556203619
 10
466.3066473945
 20
-319.7636025328
 10
467.4166373336
 20
-313.1845787135
 10
468.7682340817
 20
-306.533237772
 10
470.3584136026
 20
-299.8244190973
 10
472.1836460977
 20
-293.0730882679
 10
474.2398538593
 20
-286.294311192
 10
476.5224323442
 20
-279.5032206492
 10
479.026313394
 20
-272.7149554589
 10
481.745880941
 20
-265.9446817662
 10
484.6750974492
 20
-259.2074926721
 10
487.807398547
 20
-252.5184325584
 10
491.1358141992
 20
-245.8924149693
 10
494.6529107555
 20
-239.3442378151
 10
498.3508383654
 20
-232.8885012468
 10
502.2213520515
 20
-226.5396198253
 10
506.2558064417
 20
-220.3117525585
 10
510.4452031837
 20
-214.2188059472
 10
514.7801962138
 20
-208.2743640237
 10
519.2511128304
 20
-202.4916883532
 10
523.8479694988
 20
-196.8837089098
 10
528.5605139979
 20
-191.4629024066
 10
533.3782333233
 20
-186.2413972404
 10
538.2903721261
 20
-181.2308290051
 10
543.2859748598
 20
-176.4423769981
 10
548.3538884147
 20
-171.8867261975
 10
553.4828095328
 20
-167.5740520569
 10
558.6612887593
 20
-163.5139695554
 10
563.8777752235
 20
-159.7155316803
 10
569.1206258586
 20
-156.1872362723
 10
574.3781434323
 20
-152.9369310664
 10
579.6385961389
 20
-149.9718875536
 10
584.8902452578
 20
-147.2987120093
 10
590.1213731421
 20
-144.9233658383
 10
595.320306761
 20
-142.8511641513
 10
600.475444536
 20
-141.0867116032
 10
605.5752843286
 20
-139.6339592402
 10
610.6084451727
 20
-138.4961554526
 10
615.5637002015
 20
-137.675814798
 10
620.4299858673
 20
-137.174785684
 10
625.1964467224
 20
-136.9941880145
 10
629.8524512242
 20
-137.134404065
 10
634.387599638
 20
-137.5951590931
 10
638.7917819883
 20
-138.3753783765
 10
643.0551675229
 20
-139.4733636397
 10
647.1682415906
 20
-140.8866318389
 10
651.1218267151
 20
-142.612049006
 10
654.9071036685
 20
-144.6457572455
 10
658.5156220076
 20
-146.9832234057
 10
661.9393316843
 20
-149.6192269139
 10
665.1705988508
 20
-152.5478871549
 10
668.2022005907
 20
-155.7626725954
 10
671.0273776034
 20
-159.2564068735
 10
673.6398289349
 20
-163.0212900905
 10
676.0337277835
 20
-167.0489261893
 10
678.2037214994
 20
-171.3303290381
 10
680.1449842683
 20
-175.8559376447
 10
681.8531644284
 20
-180.6156678628
 10
683.324468763
 20
-185.5988819815
 10
684.5556098182
 20
-190.7944708505
 10
685.5438269752
 20
-196.1908401934
 10
686.286928598
 20
-201.7759471143
 10
686.7832498861
 20
-207.5373312725
 10
687.0316950213
 20
-213.4621295254
 10
687.0316950213
 20
-219.5371295375
 10
686.7832498861
 20
-225.7487764379
 10
686.286928598
 20
-232.0832009578
 10
685.5438269752
 20
-238.52627475
 10
684.5556098182
 20
-245.0636153362
 10
683.324468763
 20
-251.6806494111
 10
681.8531644284
 20
-258.3625953561
 10
680.1449842683
 20
-265.094548407
 10
678.2037214994
 20
-271.8614912985
 10
676.0337277835
 20
-278.6483155623
 10
673.6398289349
 20
-285.4398884396
 10
671.0273776034
 20
-292.2210437608
 10
668.2022005907
 20
-298.9766579866
 10
665.1705988508
 20
-305.691656292
 10
661.9393316843
 20
-312.3510581923
 10
658.5156220076
 20
-318.9399927528
 10
654.9071036685
 20
-325.443765505
 10
651.1218267151
 20
-331.8478614885
 10
647.1682415906
 20
-338.1379908777
 10
643.0551675229
 20
-344.3001133133
 10
638.7917819883
 20
-350.3204987384
 10
634.387599638
 20
-356.1856787272
 10
629.8524512242
 20
-361.8826046587
 10
625.1964467224
 20
-367.3985290819
 10
620.4299858673
 20
-372.7211699759
 10
615.5637002015
 20
-377.8386346987
 10
610.6084451727
 20
-382.7395097208
 10
605.5752843286
 20
-387.4128697497
 10
600.475444536
 20
-391.8482670785
 10
595.320306761
 20
-396.0358099136
 10
590.1213731421
 20
-399.9661692149
 10
584.8902452578
 20
-403.6305547398
 10
579.6385961389
 20
-407.0208042046
 10
574.3781434323
 20
-410.1293501068
 10
569.1206258586
 20
-412.9492454837
 10
563.8777752235
 20
-415.4742165715
 10
558.6612887593
 20
-417.6986057685
 10
553.4828095328
 20
-419.6174681165
 10
548.3538884147
 20
-421.2265202515
 10
543.2859748598
 20
-422.5221578931
 10
538.2903721261
 20
-423.5015060314
 10
533.3782333233
 20
-424.1623725379
 10
528.5605139979
 20
-424.5032877053
 10
523.8479694988
 20
-424.5234692662
 10
519.2511128304
 20
-424.2229075605
 10
514.7801962138
 20
-423.602242339
 10
510.4452031837
 20
-422.6628768321
 10
506.2558064417
 20
-421.4069047412
 10
502.2213520515
 20
-419.8371193631
 10
498.3508383654
 20
-417.9570379226
 10
494.6529107555
 20
-415.770837693
 10
491.1358141992
 20
-413.2834137872
 10
487.807398547
 20
-410.5003031116
 10
484.6750974492
 20
-407.4277208665
 10
481.745880941
 20
-404.0725331648
 10
479.026313394
 20
-400.4422053263
 10
476.5224323442
 20
-396.5448596611
 10
474.2398538593
 20
-392.3891781407
 10
472.1836460977
 20
-387.9844480134
 10
470.3584136026
 20
-383.3404857662
 10
468.7682340817
 20
-378.4676492863
 10
467.4166373336
 20
-373.3768287336
 10
466.3066473945
 20
-368.0793720191
 10
465.4407509285
 20
-362.5870969695
 10
464.8208656173
 20
-356.912270031
 10
464.4483717702
 20
-351.06755228
 10
464.3241228608
 20
-345.0659743281
  0
LWPOLYLINE
  5
E1
330
1F
100
AcDbEntity
  8
0
  6
Continuous
 62
     7
370
    25
100
AcDbPolyline
 90
      126
 70
   128
 43
0.0
 10
477.5470222315
 20
-337.4325570033
 10
477.6709866497
 20
-331.666510475
 10
478.0425532662
 20
-325.7719111563
 10
478.660805387
 20
-319.7636362768
 10
479.524173042
 20
-313.6568687111
 10
480.6304645951
 20
-307.467040327
 10
481.9768983544
 20
-301.2097798968
 10
483.5600709617
 20
-294.9008940828
 10
485.3759784665
 20
-288.5563248534
 10
487.4200321307
 20
-282.192096252
 10
489.6870742336
 20
-275.8242839802
 10
492.1713780722
 20
-269.4689758536
 10
494.8666637661
 20
-263.1422231336
 10
497.7661245993
 20
-256.8600131534
 10
500.8624375568
 20
-250.6382054398
 10
504.1477791298
 20
-244.4925286732
 10
507.6138516577
 20
-238.4384985598
 10
511.2518991325
 20
-232.4914147915
 10
515.052728273
 20
-226.6662941267
 10
519.0067454028
 20
-220.9778551849
 10
523.1039564503
 20
-215.4404636934
 10
527.3340143644
 20
-210.0681111984
 10
531.6862322847
 20
-204.8743648761
 10
536.1496151522
 20
-199.8723553679
 10
540.7128886848
 20
-195.0747053
 10
545.3645283536
 20
-190.4935308066
 10
550.0927804564
 20
-186.1404232813
 10
554.8857003127
 20
-182.0263664896
 10
559.7311838745
 20
-178.1617426561
 10
564.6169901166
 20
-174.556331706
 10
569.5307752807
 20
-171.2192428263
 10
574.4601281899
 20
-168.1588940798
 10
579.3925965086
 20
-165.3830215802
 10
584.3157204924
 20
-162.8986356737
 10
589.217063775
 20
-160.7120153336
 10
594.0842450613
 20
-158.8286776971
 10
598.904971301
 20
-157.2533832491
 10
603.6670594205
 20
-155.9901111092
 10
608.3584883485
 20
-155.042053333
 10
612.9673990155
 20
-154.4116149125
 10
617.4821536229
 20
-154.1003673928
 10
621.8913488141
 20
-154.1091142737
 10
626.1838367475
 20
-154.4378240906
 10
630.3487883174
 20
-155.0856730065
 10
634.3756720799
 20
-156.0510143916
 10
638.2543253761
 20
-157.3314229366
 10
641.9749385272
 20
-158.9236551072
 10
645.5281180542
 20
-160.823691736
 10
648.9048919467
 20
-163.0267349814
 10
652.0967307364
 20
-165.5272144127
 10
655.0955633016
 20
-168.3188143887
 10
657.8938190148
 20
-171.3944923127
 10
660.4844330105
 20
-174.7464695074
 10
662.8608514536
 20
-178.366276843
 10
665.0170789551
 20
-182.2447821185
 10
666.9476785714
 20
-186.3721718106
 10
668.6477454631
 20
-190.738036243
 10
670.1130122617
 20
-195.3313330943
 10
671.3397700446
 20
-200.1404649571
 10
672.3249104817
 20
-205.1532854266
 10
673.0659469089
 20
-210.3571340832
 10
673.5610143282
 20
-215.7388593067
 10
673.8088694076
 20
-221.2848631434
 10
673.8088694076
 20
-226.9811454112
 10
673.5610143282
 20
-232.8133166314
 10
673.0659469089
 20
-238.7666345305
 10
672.3249104817
 20
-244.8260656344
 10
671.3397700446
 20
-250.9763050419
 10
670.1130122617
 20
-257.2018212923
 10
668.6477454631
 20
-263.4868791791
 10
666.9476785714
 20
-269.8155990641
 10
665.0170789551
 20
-276.1720116271
 10
662.8608514536
 20
-282.5400441847
 10
660.4844330105
 20
-288.9036058523
 10
657.8938190148
 20
-295.2466422998
 10
655.0955633016
 20
-301.5531175009
 10
652.0967307364
 20
-307.8070958579
 10
648.9048919467
 20
-313.9927939137
 10
645.5281180542
 20
-320.0945773084
 10
641.9749385272
 20
-326.0970276968
 10
638.2543253761
 20
-331.9849883744
 10
634.3756720799
 20
-337.7435946941
 10
630.3487883174
 20
-343.3582771074
 10
626.1838367475
 20
-348.8148767487
 10
621.8913488141
 20
-354.0995876421
 10
617.4821536229
 20
-359.1990829311
 10
612.9673990155
 20
-364.1004601273
 10
608.3584883485
 20
-368.791356695
 10
603.6670594205
 20
-373.2599074634
 10
598.904971301
 20
-377.4948252341
 10
594.0842450613
 20
-381.485422829
 10
589.217063775
 20
-385.2216130906
 10
584.3157204924
 20
-388.6939632501
 10
579.3925965086
 20
-391.8936953054
 10
574.4601281899
 20
-394.8127295071
 10
569.5307752807
 20
-397.4436904867
 10
564.6169901166
 20
-399.7799371971
 10
559.7311838745
 20
-401.8155580613
 10
554.8857003127
 20
-403.5454104666
 10
550.0927804564
 20
-404.965141151
 10
545.3645283536
 20
-406.0711573028
 10
540.7128886848
 20
-406.8606516532
 10
536.1496151522
 20
-407.3316450597
 10
531.6862322847
 20
-407.482947719
 10
527.3340143644
 20
-407.3141652481
 10
523.1039564503
 20
-406.8257336635
 10
519.0067454028
 20
-406.0188813552
 10
515.052728273
 20
-404.8956534182
 10
511.2518991325
 20
-403.4588766705
 10
507.6138516577
 20
-401.7121931085
 10
504.1477791298
 20
-399.6600051542
 10
500.8624375568
 20
-397.3075030279
 10
497.7661245993
 20
-394.6606221606
 10
494.8666637661
 20
-391.7260584016
 10
492.1713780722
 20
-388.511216305
 10
489.6870742336
 20
-385.0242243366
 10
487.4200321307
 20
-381.2738831624
 10
485.3759784665
 20
-377.2696686874
 10
483.5600709617
 20
-373.0217016356
 10
481.9768983544
 20
-368.5407080062
 10
480.6304645951
 20
-363.8380069047
 10
479.524173042
 20
-358.9254755598
 10
478.660805387
 20
-353.8155310706
 10
478.0425532662
 20
-348.5210748957
 10
477.6709866497
 20
-343.0554772608
 10
477.5470222315
 20
-337.4325570033
  0
ARC
  5
E2
330
1F
100
AcDbEntity
  8
0
  6
Continuous
 62
     7
370
    25
100
AcDbCircle
 10
733.7032695414
 20
-251.5394603692
 30
0.0
 40
53.18311879312006
100
AcDbArc
 50
47.8941466702
 51
59.9702373153
  0
ARC
  5
E3
330
1F
100
AcDbEntity
  8
0
  6
Continuous
 62
     7
370
    25
100
AcDbCircle
 10
629.435924209
 20
-432.1367108087
 30
0.0
 40
53.28142965265584
100
AcDbArc
 50
240.0451148709
 51
252.3942127608
  0
ARC
  5
E4
330
1F
100
AcDbEntity
  8
0
  6
Continuous
 62
     7
370
    25
100
AcDbCircle
 10
728.5605604358
 20
-257.4825324224
 30
0.0
 40
61.03890467633209
100
AcDbArc
 50
27.6161806821
 51
50.4736007078
  0
ARC
  5
E5
330
1F
100
AcDbEntity
  8
0
  6
Continuous
 62
     7
370
    25
100
AcDbCircle
 10
631.8377394708
 20
-425.6273691332
 30
0.0
 40
60.21881660059862
100
AcDbArc
 50
249.3736688181
 51
272.5318237228
  0
ARC
  5
E6
330
1F
100
AcDbEntity
  8
0
  6
Continuous
 62
     7
370
    25
100
AcDbCircle
 10
767.7606573975
 20
-294.7973462395
 30
0.0
 40
56.62731931621693
100
AcDbArc
 50
27.9640644709
 51
41.5049897979
  0
ARC
  5
E7
330
1F
100
AcDbEntity
  8
0
  6
Continuous
 62
     7
370
    25
100
AcDbCircle
 10
683.7495458413
 20
-441.1058636284
 30
0.0
 40
55.60162326025246
100
AcDbArc
 50
258.4295890729
 51
269.7194617178
  0
LWPOLYLINE
  5
E8
330
1F
100
AcDbEntity
  8
0
  6
Continuous
 62
     7
370
    25
100
AcDbPolyline
 90
       65
 70
   128
 43
0.0
 10
896.7106595144
 20
-304.4394373628
 10
897.154787199
 20
-304.6990980259
 10
900.5607583208
 20
-306.9211860017
 10
903.7801874912
 20
-309.443286461
 10
906.8049456366
 20
-312.2590259619
 10
909.6273936408
 20
-315.3612919386
 10
912.2404034181
 20
-318.7422448709
 10
914.6373737183
 20
-322.3933517457
 10
916.8122459318
 20
-326.3053830167
 10
918.7595251635
 20
-330.4684612765
 10
920.4743013053
 20
-334.8720673416
 10
921.9522332318
 20
-339.5050767534
 10
923.1895909471
 20
-344.3557902008
 10
924.1832450476
 20
-349.4119502493
 10
924.9306983326
 20
-354.6607839299
 10
925.430043657
 20
-360.0890377163
 10
925.6800376889
 20
-365.682992171
 10
925.6800376889
 20
-371.4285216355
 10
925.430043657
 20
-377.3111130557
 10
924.9306983326
 20
-383.3158986819
 10
924.1832450476
 20
-389.4277235559
 10
923.1895909471
 20
-395.631132209
 10
921.9522332318
 20
-401.9104684654
 10
920.4743013053
 20
-408.2498617582
 10
918.7595251635
 20
-414.6333062146
 10
916.8122459318
 20
-421.0446652192
 10
914.6373737183
 20
-427.4677504988
 10
912.2404034181
 20
-433.8863403745
 10
909.6273936408
 20
-440.2842101788
 10
906.8049456366
 20
-446.6452052572
 10
903.7801874912
 20
-452.9532561769
 10
900.5607583208
 20
-459.1924304361
 10
897.154787199
 20
-465.3469689646
 10
893.5708878878
 20
-471.4013135
 10
889.8181061546
 20
-477.340179587
 10
885.9059250403
 20
-483.1485657034
 10
881.8442227126
 20
-488.8117958423
 10
877.6432671974
 20
-494.3155651394
 10
873.3136636955
 20
-499.6459702862
 10
868.8663493141
 20
-504.789549074
 10
864.3125614566
 20
-509.7333047254
 10
859.6638035785
 20
-514.4647499983
 10
854.9318188455
 20
-518.9719345598
 10
850.1285558891
 20
-523.2434708388
 10
845.2661543188
 20
-527.2685667245
 10
840.3568933556
 20
-531.0370673874
 10
835.413175368
 20
-534.5394282806
 10
830.4474880064
 20
-537.7668221721
 10
825.472375885
 20
-540.7110946547
 10
820.5004060088
 20
-543.36480844
 10
815.544138797
 20
-545.7212479178
 10
810.6160921931
 20
-547.7744642112
 10
805.728717298
 20
-549.5192892419
 10
800.8943591871
 20
-550.9512853463
 10
796.1252299097
 20
-552.0668582019
 10
791.4333742448
 20
-552.8631914238
 10
786.8306486278
 20
-553.3382465631
 10
782.3286750522
 20
-553.490862723
 10
777.9388331671
 20
-553.320615112
 10
773.6722023252
 20
-552.8279640894
 10
769.5395721198
 20
-552.0141334919
 10
765.5513686275
 20
-550.8811957988
 10
761.7176754819
 20
-549.4319991293
 10
758.0481759214
 20
-547.6702128649
 10
756.7220411381
 20
-546.933117758
  0
LWPOLYLINE
  5
E9
330
1F
100
AcDbEntity
  8
0
  6
Continuous
 62
     1
370
    25
100
AcDbPolyline
 90
       63
 70
   128
 43
0.0
 10
769.3626791624
 20
-212.082513832
 10
771.0523094407
 20
-213.672097613
 10
774.0839111807
 20
-216.8868830536
 10
776.9090881934
 20
-220.3806173317
 10
779.5215395249
 20
-224.1455005487
 10
781.9154383735
 20
-228.1731366475
 10
784.0854320893
 20
-232.4545394963
 10
786.0266948583
 20
-236.9801481029
 10
787.7348750183
 20
-241.739878321
 10
789.206179353
 20
-246.7230924397
 10
790.4373204081
 20
-251.9186813086
 10
791.4255375651
 20
-257.3150506516
 10
792.168639188
 20
-262.9001575725
 10
792.664960476
 20
-268.6615417306
 10
792.9134056113
 20
-274.5863399836
 10
792.9134056113
 20
-280.6613399957
 10
792.664960476
 20
-286.8729868961
 10
792.168639188
 20
-293.2074114159
 10
791.4255375651
 20
-299.6504852082
 10
790.4373204081
 20
-306.1878257944
 10
789.206179353
 20
-312.8048598693
 10
787.7348750183
 20
-319.4868058143
 10
786.0266948583
 20
-326.2187588651
 10
784.0854320893
 20
-332.9857017567
 10
781.9154383735
 20
-339.7725260204
 10
779.5215395249
 20
-346.5640988977
 10
776.9090881934
 20
-353.3452542189
 10
774.0839111807
 20
-360.1008684448
 10
771.0523094407
 20
-366.8158667502
 10
767.8210422743
 20
-373.4752686504
 10
764.3973325976
 20
-380.064203211
 10
760.7888142585
 20
-386.5679759631
 10
757.0035373051
 20
-392.9720719467
 10
753.0499521805
 20
-399.2622013359
 10
748.9368781128
 20
-405.4243237715
 10
744.6734925783
 20
-411.4447091966
 10
740.2693102279
 20
-417.3098891853
 10
735.7341618142
 20
-423.0068151169
 10
731.0781573123
 20
-428.5227395401
 10
726.3116964573
 20
-433.8453804341
 10
721.4454107915
 20
-438.9628451568
 10
716.4901557627
 20
-443.863720179
 10
711.4569949186
 20
-448.5370802078
 10
706.3571551259
 20
-452.9724775367
 10
701.202017351
 20
-457.1600203718
 10
696.0030837321
 20
-461.090379673
 10
690.7719558478
 20
-464.754765198
 10
685.5203067288
 20
-468.1450146628
 10
680.2598540222
 20
-471.253560565
 10
675.0023364485
 20
-474.0734559419
 10
669.7594858135
 20
-476.5984270297
 10
664.5429993492
 20
-478.8228162267
 10
659.3645201227
 20
-480.7416785747
 10
654.2355990046
 20
-482.3507307096
 10
649.1676854497
 20
-483.6463683512
 10
644.172082716
 20
-484.6257164895
 10
639.2599439132
 20
-485.286582996
 10
634.4422245878
 20
-485.6274981635
 10
629.7296800887
 20
-485.6476797244
 10
625.1328234204
 20
-485.3471180187
 10
620.6619068038
 20
-484.7264527972
 10
616.3269137736
 20
-483.7870872902
 10
613.3200943806
 20
-482.9224447778
  0
LWPOLYLINE
  5
EA
330
1F
100
AcDbEntity
  8
0
  6
Continuous
 62
     1
370
    25
100
AcDbPolyline
 90
       30
 70
   128
 43
0.0
 10
583.4586821086
 20
-389.2716348913
 10
583.6478055546
 20
-386.7365256341
 10
584.2660576754
 20
-380.7282507546
 10
585.1294253304
 20
-374.6214831889
 10
586.2357168836
 20
-368.4316548048
 10
587.5821506428
 20
-362.1743943745
 10
589.1653232501
 20
-355.8655085606
 10
590.9812307549
 20
-349.5209393312
 10
593.0252844191
 20
-343.1567107298
 10
595.292326522
 20
-336.788898458
 10
597.7766303606
 20
-330.4335903314
 10
600.4719160545
 20
-324.1068376114
 10
603.3713768877
 20
-317.8246276312
 10
606.4676898452
 20
-311.6028199176
 10
609.7530314183
 20
-305.457143151
 10
613.2191039461
 20
-299.4031130376
 10
616.8571514209
 20
-293.4560292693
 10
620.6579805614
 20
-287.6309086045
 10
624.6119976912
 20
-281.9424696627
 10
628.7092087388
 20
-276.4050781712
 10
632.9392666528
 20
-271.0327256762
 10
637.2914845732
 20
-265.8389793539
 10
641.7548674406
 20
-260.8369698457
 10
646.3181409732
 20
-256.0393197778
 10
650.969780642
 20
-251.4581452844
 10
655.6980327448
 20
-247.1050377591
 10
660.4909526011
 20
-242.9909809674
 10
665.3364361629
 20
-239.1263571339
 10
670.222242405
 20
-235.5209461838
 10
673.5334509478
 20
-233.2406564309
  0
LWPOLYLINE
  5
EB
330
1F
100
AcDbEntity
  8
0
  6
Continuous
 62
     1
370
    25
100
AcDbPolyline
 90
       54
 70
   128
 43
0.0
 10
782.6454678878
 20
-229.1881748577
 10
784.4044139268
 20
-232.7101986886
 10
786.3448442955
 20
-237.2338938925
 10
788.0523079591
 20
-241.9915981702
 10
789.5229906278
 20
-246.9727011856
 10
790.7535943106
 20
-252.1660907454
 10
791.7414005359
 20
-257.5601695356
 10
792.4841860573
 20
-263.1429068244
 10
792.9802966111
 20
-268.9018475956
 10
793.2286363793
 20
-274.8241325088
 10
793.2286363793
 20
-280.8965560726
 10
792.9802966111
 20
-287.1055679789
 10
792.4841860573
 20
-293.4373058032
 10
791.7414005359
 20
-299.8776450005
 10
790.7535943106
 20
-306.4122205822
 10
789.5229906278
 20
-313.0264349111
 10
788.0523079591
 20
-319.7055519925
 10
786.3448442955
 20
-326.4346518538
 10
784.4044139268
 20
-333.1987202737
 10
782.2353369049
 20
-339.9826700738
 10
779.8424601174
 20
-346.7713593717
 10
777.2311151407
 20
-353.5496372052
 10
774.4071287765
 20
-360.3023922023
 10
771.3768125154
 20
-367.0145434552
 10
768.1469203899
 20
-373.6711135207
 10
764.7246595111
 20
-380.2572588393
 10
761.1176689952
 20
-386.7582697336
 10
757.3339988905
 20
-393.1596494945
 10
753.3820943715
 20
-399.4471113376
 10
749.2707641296
 20
-405.6066209863
 10
745.0091856412
 20
-411.6244423001
 10
740.6068735573
 20
-417.4871433553
 10
736.0736428251
 20
-423.181648153
 10
731.4196192252
 20
-428.69523662
 10
726.6551761505
 20
-434.0156176076
 10
721.7909556803
 20
-439.1309167259
 10
716.8378053597
 20
-444.02971284
 10
711.8067781998
 20
-448.7010867399
 10
706.7091010673
 20
-453.1346028865
 10
701.5561483431
 20
-457.320385455
 10
696.3594208482
 20
-461.2490696636
 10
691.1305116004
 20
-464.911906714
 10
685.881089679
 20
-468.3007122687
 10
680.6228682035
 20
-471.4079336065
 10
675.3675803792
 20
-474.2266391156
 10
670.1269536489
 20
-476.7505332165
 10
664.9126798942
 20
-478.9739857308
 10
659.7363962551
 20
-480.8920307872
 10
654.6096509681
 20
-482.5003987097
 10
649.5438869025
 20
-483.7954890198
 10
644.5504046821
 20
-484.7744160606
 10
639.6403468799
 20
-485.4350059538
 10
634.8246743108
 20
-485.7757737836
 10
634.4978623791
 20
-485.7874025348
  0
LWPOLYLINE
  5
EC
330
1F
100
AcDbEntity
  8
0
  6
Continuous
 62
     1
370
    25
100
AcDbPolyline
 90
       52
 70
   128
 43
0.0
 10
817.7762767239
 20
-268.2437943804
 10
818.3892394153
 20
-269.4147548613
 10
820.3374458775
 20
-273.5798195371
 10
822.0530438829
 20
-277.9855245569
 10
823.5316817692
 20
-282.620745461
 10
824.7696295404
 20
-287.473770771
 10
825.7637577929
 20
-292.5323445732
 10
826.5115587893
 20
-297.783687814
 10
827.0111464581
 20
-303.2145294783
 10
827.2612563939
 20
-308.8111548797
 10
827.2612563939
 20
-314.5594261931
 10
827.0111464581
 20
-320.4448223797
 10
826.5115587893
 20
-326.4524756887
 10
825.7637577929
 20
-332.5672115821
 10
824.7696295404
 20
-338.7735814332
 10
823.5316817692
 20
-345.0559108162
 10
822.0530438829
 20
-351.3983306851
 10
820.3374458775
 20
-357.7848229995
 10
818.3892394153
 20
-364.199238978
 10
816.2133293355
 20
-370.6253933884
 10
813.8152158021
 20
-377.0470402177
 10
811.2009626928
 20
-383.4479639243
 10
808.3771659894
 20
-389.811994644
 10
805.3509643144
 20
-396.1230568613
 10
802.1299967841
 20
-402.3652059069
 10
798.7224030086
 20
-408.5226827118
 10
795.1367914817
 20
-414.5799198874
 10
791.3822185074
 20
-420.521620812
 10
787.4681723951
 20
-426.3327748383
 10
783.4045313124
 20
-431.9987059595
 10
779.2015685535
 20
-437.5051062698
 10
774.869899856
 20
-442.8380542108
 10
770.4204649613
 20
-447.9840921365
 10
765.8645065411
 20
-452.9301958937
 10
761.2135280509
 20
-457.6639086586
 10
756.4792858273
 20
-462.1732359927
 10
751.6737311361
 20
-466.446813139
 10
746.809008855
 20
-470.4738327781
 10
741.8974061074
 20
-474.2441233509
 10
736.9513285549
 20
-477.7481627445
 10
731.9832720794
 20
-480.97709464
 10
727.0057859874
 20
-483.922774089
 10
722.0314436222
 20
-486.5777479762
 10
717.0728109186
 20
-488.9353096754
 10
712.1424133108
 20
-490.9895181522
 10
707.2527058511
 20
-492.7351665453
 10
702.4160402002
 20
-494.1678498917
 10
697.6446349929
 20
-495.2839578996
 10
692.9505429109
 20
-496.0806574548
 10
688.3456203895
 20
-496.5559466105
 10
683.8414999588
 20
-496.7086340524
 10
683.4773037724
 20
-496.7068203956
  0
LWPOLYLINE
  5
ED
330
1F
100
AcDbEntity
  8
0
  6
Continuous
 62
     1
370
    25
100
AcDbPolyline
 90
       30
 70
   128
 43
0.0
 10
584.5677698417
 20
-388.5224118192
 10
584.671451089
 20
-387.2054808105
 10
585.2889551033
 20
-381.2044386234
 10
586.1512796238
 20
-375.1050200732
 10
587.2562435512
 20
-368.9226380171
 10
588.6010546568
 20
-362.6729060173
 10
590.1823201192
 20
-356.3716155277
 10
591.9960465246
 20
-350.0346750573
 10
594.0376398665
 20
-343.6781056073
 10
596.301952961
 20
-337.3179585454
 10
598.7832643734
 20
-330.9702973529
 10
601.4753100283
 20
-324.6511580833
 10
604.3712779414
 20
-318.3765067765
 10
607.4638661711
 20
-312.1621847101
 10
610.7452564772
 20
-306.023899272
 10
614.207156467
 20
-299.9771570435
 10
617.8408259379
 20
-294.0372303411
 10
621.6370874137
 20
-288.2191146318
 10
625.586347218
 20
-282.5375163679
 10
629.6786270843
 20
-277.0067921523
 10
633.9035957664
 20
-271.6409000725
 10
638.2505743066
 20
-266.4534088262
 10
642.7085887192
 20
-261.4574064712
 10
647.2663726248
 20
-256.6655293224
 10
651.9124120311
 20
-252.0898752641
 10
656.6349743093
 20
-247.7419991896
 10
661.422129267
 20
-243.6328886681
 10
666.2617833929
 20
-239.7729320088
 10
671.1417101496
 20
-236.171864271
 10
673.4392744734
 20
-234.5757693898
  0
LWPOLYLINE
  5
EE
330
1F
100
AcDbEntity
  8
0
  6
Continuous
 62
     1
370
    25
100
AcDbPolyline
 90
       58
 70
   128
 43
0.0
 10
808.7036512831
 20
-255.6273280056
 10
811.5238549676
 20
-258.7273245505
 10
814.1368647449
 20
-262.1082774827
 10
816.533835045
 20
-265.7593843575
 10
818.7087072586
 20
-269.6714156286
 10
820.6559864902
 20
-273.8344938884
 10
822.370762632
 20
-278.2380999534
 10
823.8486945586
 20
-282.8711093652
 10
825.0860522739
 20
-287.7218228126
 10
826.0797063744
 20
-292.7779828611
 10
826.8271596593
 20
-298.0268165417
 10
827.3265049838
 20
-303.4550703282
 10
827.5764990157
 20
-309.0490247829
 10
827.5764990157
 20
-314.7945542473
 10
827.3265049838
 20
-320.6771456675
 10
826.8271596593
 20
-326.6819312937
 10
826.0797063744
 20
-332.7937561678
 10
825.0860522739
 20
-338.9971648208
 10
823.8486945586
 20
-345.2765010772
 10
822.370762632
 20
-351.6158943701
 10
820.6559864902
 20
-357.9993388264
 10
818.7087072586
 20
-364.410697831
 10
816.533835045
 20
-370.8337831106
 10
814.1368647449
 20
-377.2523729864
 10
811.5238549676
 20
-383.6502427906
 10
808.7014069634
 20
-390.011237869
 10
805.676648818
 20
-396.3192887887
 10
802.4572196476
 20
-402.5584630479
 10
799.0512485257
 20
-408.7130015765
 10
795.4673492145
 20
-414.7673461119
 10
791.7145674813
 20
-420.7062121988
 10
787.8023863671
 20
-426.5145983152
 10
783.7406840394
 20
-432.1778284542
 10
779.5397285242
 20
-437.6815977512
 10
775.2101250223
 20
-443.012002898
 10
770.7628106408
 20
-448.1555816858
 10
766.2090227833
 20
-453.0993373372
 10
761.5602649053
 20
-457.8307826101
 10
756.8282801723
 20
-462.3379671716
 10
752.0250172159
 20
-466.6095034506
 10
747.1626156456
 20
-470.6345993364
 10
742.2533546823
 20
-474.4030999992
 10
737.3096366948
 20
-477.9054608924
 10
732.3439493331
 20
-481.1328547839
 10
727.3688372118
 20
-484.0771272666
 10
722.3968673355
 20
-486.7308410518
 10
717.4406001238
 20
-489.0872805297
 10
712.5125535199
 20
-491.140496823
 10
707.6251786248
 20
-492.8853218537
 10
702.7908205139
 20
-494.3173179582
 10
698.0216912364
 20
-495.4328908137
 10
693.3298355716
 20
-496.2292240356
 10
688.7271099546
 20
-496.7042791749
 10
684.225136379
 20
-496.8568953348
 10
679.8352944938
 20
-496.6866477238
 10
675.568663652
 20
-496.1939967013
 10
671.4360334466
 20
-495.3801661038
 10
670.4411465508
 20
-495.1309633584
  0
ENDSEC
  0
SECTION
  2
OBJECTS
  0
DICTIONARY
  5
C
330
0
100
AcDbDictionary
281
     1
  3
ACAD_GROUP
350
D
  3
ACAD_LAYOUT
350
1A
  3
ACAD_MLINESTYLE
350
17
  3
ACAD_PLOTSETTINGS
350
19
  3
ACAD_PLOTSTYLENAME
350
E
  3
ACAD_SCALELIST
350
47
  0
DICTIONARY
  5
D
102
{ACAD_REACTORS
330
C
102
}
330
C
100
AcDbDictionary
281
     1
  0
DICTIONARY
  5
1A
102
{ACAD_REACTORS
330
C
102
}
330
C
100
AcDbDictionary
281
     1
  3
Layout1
350
1E
  3
Layout2
350
26
  3
Model
350
22
  0
DICTIONARY
  5
17
102
{ACAD_REACTORS
330
C
102
}
330
C
100
AcDbDictionary
281
     1
  3
Standard
350
18
  0
DICTIONARY
  5
19
102
{ACAD_REACTORS
330
C
102
}
330
C
100
AcDbDictionary
281
     1
  0
ACDBDICTIONARYWDFLT
  5
E
102
{ACAD_REACTORS
330
C
102
}
330
C
100
AcDbDictionary
281
     1
  3
Normal
350
F
100
AcDbDictionaryWithDefault
340
F
  0
DICTIONARY
  5
47
102
{ACAD_REACTORS
330
C
102
}
330
C
100
AcDbDictionary
281
     1
  3
A0
350
48
  3
A1
350
49
  3
A2
350
4A
  3
A3
350
4B
  3
A4
350
4C
  3
A5
350
4D
  3
A6
350
4E
  3
A7
350
4F
  3
A8
350
50
  3
A9
350
51
  3
B0
350
52
  3
B1
350
53
  3
B2
350
54
  3
B3
350
55
  3
B4
350
56
  3
B5
350
57
  3
B6
350
58
  3
B7
350
59
  3
B8
350
5A
  3
B9
350
5B
  3
C0
350
5C
  3
C1
350
5D
  3
C2
350
5E
  3
C3
350
5F
  3
C4
350
60
  3
C5
350
61
  3
C6
350
62
  3
C7
350
63
  3
C8
350
64
  3
C9
350
65
  3
D0
350
66
  3
D1
350
67
  3
D2
350
68
  0
LAYOUT
  5
1E
102
{ACAD_REACTORS
330
1A
102
}
330
1A
100
AcDbPlotSettings
  1

  2
none_device
  4

  6

 40
0.0
 41
0.0
 42
0.0
 43
0.0
 44
0.0
 45
0.0
 46
0.0
 47
0.0
 48
0.0
 49
0.0
140
0.0
141
0.0
142
1.0
143
1.0
 70
   688
 72
     1
 73
     0
 74
     5
  7

 75
    16
147
1.0
148
0.0
149
0.0
100
AcDbLayout
  1
Layout1
 70
     1
 71
     1
 10
0.0
 20
0.0
 11
420.0
 21
297.0
 12
0.0
 22
0.0
 32
0.0
 14
1.0000000000E+20
 24
1.0000000000E+20
 34
1.0000000000E+20
 15
-1.0000000000E+20
 25
-1.0000000000E+20
 35
-1.0000000000E+20
146
0.0
 13
0.0
 23
0.0
 33
0.0
 16
1.0
 26
0.0
 36
0.0
 17
0.0
 27
1.0
 37
0.0
 76
     0
330
1B
  0
LAYOUT
  5
26
102
{ACAD_REACTORS
330
1A
102
}
330
1A
100
AcDbPlotSettings
  1

  2
none_device
  4

  6

 40
0.0
 41
0.0
 42
0.0
 43
0.0
 44
0.0
 45
0.0
 46
0.0
 47
0.0
 48
0.0
 49
0.0
140
0.0
141
0.0
142
1.0
143
1.0
 70
   688
 72
     1
 73
     0
 74
     5
  7

 75
    16
147
1.0
148
0.0
149
0.0
100
AcDbLayout
  1
Layout2
 70
     1
 71
     2
 10
0.0
 20
0.0
 11
0.0
 21
0.0
 12
0.0
 22
0.0
 32
0.0
 14
0.0
 24
0.0
 34
0.0
 15
0.0
 25
0.0
 35
0.0
146
0.0
 13
0.0
 23
0.0
 33
0.0
 16
1.0
 26
0.0
 36
0.0
 17
0.0
 27
1.0
 37
0.0
 76
     0
330
23
  0
LAYOUT
  5
22
102
{ACAD_REACTORS
330
1A
102
}
330
1A
100
AcDbPlotSettings
  1

  2
none_device
  4
Letter_(8.50_x_11.00_Inches)
  6

 40
6.35
 41
6.35
 42
6.35000508
 43
6.35000508
 44
215.9
 45
279.4
 46
0.0
 47
0.0
 48
0.0
 49
0.0
140
0.0
141
0.0
142
1.0
143
1.0
 70
  1712
 72
     1
 73
     0
 74
     0
  7

 75
     0
147
1.0
148
0.0
149
0.0
100
AcDbLayout
  1
Model
 70
     1
 71
     0
 10
0.0
 20
0.0
 11
279.4
 21
215.9
 12
0.0
 22
0.0
 32
0.0
 14
0.0
 24
0.0
 34
0.0
 15
279.4
 25
215.9
 35
0.0
146
0.0
 13
0.0
 23
0.0
 33
0.0
 16
1.0
 26
0.0
 36
0.0
 17
0.0
 27
1.0
 37
0.0
 76
     0
330
1F
331
29
  0
MLINESTYLE
  5
18
102
{ACAD_REACTORS
330
17
102
}
330
17
100
AcDbMlineStyle
  2
Standard
 70
     0
  3

 62
   256
 51
90.0
 52
90.0
 71
     2
 49
0.5
 62
   256
  6
BYLAYER
 49
-0.5
 62
   256
  6
BYLAYER
  0
ACDBPLACEHOLDER
  5
F
102
{ACAD_REACTORS
330
E
102
}
330
E
  0
SCALE
  5
48
102
{ACAD_REACTORS
330
47
102
}
330
47
100
AcDbScale
 70
     0
300
1:1
140
1.0
141
1.0
290
     1
  0
SCALE
  5
49
102
{ACAD_REACTORS
330
47
102
}
330
47
100
AcDbScale
 70
     0
300
1:2
140
1.0
141
2.0
290
     0
  0
SCALE
  5
4A
102
{ACAD_REACTORS
330
47
102
}
330
47
100
AcDbScale
 70
     0
300
1:4
140
1.0
141
4.0
290
     0
  0
SCALE
  5
4B
102
{ACAD_REACTORS
330
47
102
}
330
47
100
AcDbScale
 70
     0
300
1:5
140
1.0
141
5.0
290
     0
  0
SCALE
  5
4C
102
{ACAD_REACTORS
330
47
102
}
330
47
100
AcDbScale
 70
     0
300
1:8
140
1.0
141
8.0
290
     0
  0
SCALE
  5
4D
102
{ACAD_REACTORS
330
47
102
}
330
47
100
AcDbScale
 70
     0
300
1:10
140
1.0
141
10.0
290
     0
  0
SCALE
  5
4E
102
{ACAD_REACTORS
330
47
102
}
330
47
100
AcDbScale
 70
     0
300
1:16
140
1.0
141
16.0
290
     0
  0
SCALE
  5
4F
102
{ACAD_REACTORS
330
47
102
}
330
47
100
AcDbScale
 70
     0
300
1:20
140
1.0
141
20.0
290
     0
  0
SCALE
  5
50
102
{ACAD_REACTORS
330
47
102
}
330
47
100
AcDbScale
 70
     0
300
1:30
140
1.0
141
30.0
290
     0
  0
SCALE
  5
51
102
{ACAD_REACTORS
330
47
102
}
330
47
100
AcDbScale
 70
     0
300
1:40
140
1.0
141
40.0
290
     0
  0
SCALE
  5
52
102
{ACAD_REACTORS
330
47
102
}
330
47
100
AcDbScale
 70
     0
300
1:50
140
1.0
141
50.0
290
     0
  0
SCALE
  5
53
102
{ACAD_REACTORS
330
47
102
}
330
47
100
AcDbScale
 70
     0
300
1:100
140
1.0
141
100.0
290
     0
  0
SCALE
  5
54
102
{ACAD_REACTORS
330
47
102
}
330
47
100
AcDbScale
 70
     0
300
2:1
140
2.0
141
1.0
290
     0
  0
SCALE
  5
55
102
{ACAD_REACTORS
330
47
102
}
330
47
100
AcDbScale
 70
     0
300
4:1
140
4.0
141
1.0
290
     0
  0
SCALE
  5
56
102
{ACAD_REACTORS
330
47
102
}
330
47
100
AcDbScale
 70
     0
300
8:1
140
8.0
141
1.0
290
     0
  0
SCALE
  5
57
102
{ACAD_REACTORS
330
47
102
}
330
47
100
AcDbScale
 70
     0
300
10:1
140
10.0
141
1.0
290
     0
  0
SCALE
  5
58
102
{ACAD_REACTORS
330
47
102
}
330
47
100
AcDbScale
 70
     0
300
100:1
140
100.0
141
1.0
290
     0
  0
SCALE
  5
59
102
{ACAD_REACTORS
330
47
102
}
330
47
100
AcDbScale
 70
     0
300
1/128" = 1'-0"
140
0.0078125
141
12.0
290
     0
  0
SCALE
  5
5A
102
{ACAD_REACTORS
330
47
102
}
330
47
100
AcDbScale
 70
     0
300
1/64" = 1'-0"
140
0.015625
141
12.0
290
     0
  0
SCALE
  5
5B
102
{ACAD_REACTORS
330
47
102
}
330
47
100
AcDbScale
 70
     0
300
1/32" = 1'-0"
140
0.03125
141
12.0
290
     0
  0
SCALE
  5
5C
102
{ACAD_REACTORS
330
47
102
}
330
47
100
AcDbScale
 70
     0
300
1/16" = 1'-0"
140
0.0625
141
12.0
290
     0
  0
SCALE
  5
5D
102
{ACAD_REACTORS
330
47
102
}
330
47
100
AcDbScale
 70
     0
300
3/32" = 1'-0"
140
0.09375
141
12.0
290
     0
  0
SCALE
  5
5E
102
{ACAD_REACTORS
330
47
102
}
330
47
100
AcDbScale
 70
     0
300
1/8" = 1'-0"
140
0.125
141
12.0
290
     0
  0
SCALE
  5
5F
102
{ACAD_REACTORS
330
47
102
}
330
47
100
AcDbScale
 70
     0
300
3/16" = 1'-0"
140
0.1875
141
12.0
290
     0
  0
SCALE
  5
60
102
{ACAD_REACTORS
330
47
102
}
330
47
100
AcDbScale
 70
     0
300
1/4" = 1'-0"
140
0.25
141
12.0
290
     0
  0
SCALE
  5
61
102
{ACAD_REACTORS
330
47
102
}
330
47
100
AcDbScale
 70
     0
300
3/8" = 1'-0"
140
0.375
141
12.0
290
     0
  0
SCALE
  5
62
102
{ACAD_REACTORS
330
47
102
}
330
47
100
AcDbScale
 70
     0
300
1/2" = 1'-0"
140
0.5
141
12.0
290
     0
  0
SCALE
  5
63
102
{ACAD_REACTORS
330
47
102
}
330
47
100
AcDbScale
 70
     0
300
3/4" = 1'-0"
140
0.75
141
12.0
290
     0
  0
SCALE
  5
64
102
{ACAD_REACTORS
330
47
102
}
330
47
100
AcDbScale
 70
     0
300
1" = 1'-0"
140
1.0
141
12.0
290
     0
  0
SCALE
  5
65
102
{ACAD_REACTORS
330
47
102
}
330
47
100
AcDbScale
 70
     0
300
1-1/2" = 1'-0"
140
1.5
141
12.0
290
     0
  0
SCALE
  5
66
102
{ACAD_REACTORS
330
47
102
}
330
47
100
AcDbScale
 70
     0
300
3" = 1'-0"
140
3.0
141
12.0
290
     0
  0
SCALE
  5
67
102
{ACAD_REACTORS
330
47
102
}
330
47
100
AcDbScale
 70
     0
300
6" = 1'-0"
140
6.0
141
12.0
290
     0
  0
SCALE
  5
68
102
{ACAD_REACTORS
330
47
102
}
330
47
100
AcDbScale
 70
     0
300
1'-0" = 1'-0"
140
12.0
141
12.0
290
     0
  0
ENDSEC
  0
EOF
